ISO-10303-21;
HEADER;
FILE_DESCRIPTION (( 'STEP AP203' ),
    '1' );
FILE_NAME ('N-SF1-BPBSC-25.4-900-1300.STEP',
    '2021-01-05T02:15:23',
    ( '' ),
    ( '' ),
    'SwSTEP 2.0',
    'SolidWorks 2020',
    '' );
FILE_SCHEMA (( 'CONFIG_CONTROL_DESIGN' ));
ENDSEC;

DATA;
#1 = COORDINATED_UNIVERSAL_TIME_OFFSET ( 8, 0, .AHEAD. ) ;
#2 = COORDINATED_UNIVERSAL_TIME_OFFSET ( 8, 0, .AHEAD. ) ;
#3 = EDGE_LOOP ( 'NONE', ( #74, #159, #236, #296 ) ) ;
#4 = PRODUCT_DEFINITION ( 'UNKNOWN', '', #95, #102 ) ;
#5 = VECTOR ( 'NONE', #42, 1000.000000000000000 ) ;
#6 = PRODUCT_RELATED_PRODUCT_CATEGORY ( 'detail', '', ( #288 ) ) ;
#7 = LINE ( 'NONE', #129, #294 ) ;
#8 = APPLICATION_CONTEXT ( 'configuration controlled 3d designs of mechanical parts and assemblies' ) ;
#9 = DIRECTION ( 'NONE',  ( -0.7071067811865475727, 0.7071067811865475727, 0.000000000000000000 ) ) ;
#10 = AXIS2_PLACEMENT_3D ( 'NONE', #232, #9, #103 ) ;
#11 = VERTEX_POINT ( 'NONE', #260 ) ;
#12 = CARTESIAN_POINT ( 'NONE',  ( 12.69999999999999929, 12.69999999999999929, 12.69999999999999929 ) ) ;
#13 = ORIENTED_EDGE ( 'NONE', *, *, #211, .F. ) ;
#14 = CARTESIAN_POINT ( 'NONE',  ( 12.69999999999999574, 12.69999999999999574, 12.69999999999999929 ) ) ;
#15 = CARTESIAN_POINT ( 'NONE',  ( 12.69999999999999929, 12.69999999999999929, 12.69999999999999929 ) ) ;
#16 = EDGE_CURVE ( 'NONE', #180, #18, #308, .T. ) ;
#17 = CC_DESIGN_APPROVAL ( #25, ( #95 ) ) ;
#18 = VERTEX_POINT ( 'NONE', #166 ) ;
#19 = CARTESIAN_POINT ( 'NONE',  ( -12.70000000000000284, 12.70000000000000284, 12.69999999999999929 ) ) ;
#20 = LINE ( 'NONE', #109, #295 ) ;
#21 = CARTESIAN_POINT ( 'NONE',  ( -12.69999999999999574, -12.69999999999999396, -12.69999999999999929 ) ) ;
#22 =( NAMED_UNIT ( * ) PLANE_ANGLE_UNIT ( ) SI_UNIT ( $, .RADIAN. ) );
#23 = LINE ( 'NONE', #132, #247 ) ;
#24 = PERSON_AND_ORGANIZATION ( #72, #158 ) ;
#25 = APPROVAL ( #143, 'UNSPECIFIED' ) ;
#26 = CALENDAR_DATE ( 2021, 5, 1 ) ;
#27 = EDGE_LOOP ( 'NONE', ( #284, #140, #193 ) ) ;
#28 = CARTESIAN_POINT ( 'NONE',  ( 12.69999999999999574, 12.69999999999999574, 12.69999999999999929 ) ) ;
#29 = CARTESIAN_POINT ( 'NONE',  ( -12.69999999999999751, -12.69999999999999929, 12.69999999999999929 ) ) ;
#30 = PLANE ( 'NONE',  #10 ) ;
#31 = VECTOR ( 'NONE', #214, 1000.000000000000000 ) ;
#32 = ORIENTED_EDGE ( 'NONE', *, *, #50, .T. ) ;
#33 = LOCAL_TIME ( 10, 15, 23.00000000000000000, #2 ) ;
#34 = VERTEX_POINT ( 'NONE', #58 ) ;
#35 = CARTESIAN_POINT ( 'NONE',  ( 12.69999999999999929, 12.69999999999999929, 12.69999999999999929 ) ) ;
#36 = DIRECTION ( 'NONE',  ( -0.000000000000000000, 1.000000000000000000, -0.000000000000000000 ) ) ;
#37 = ADVANCED_FACE ( 'NONE', ( #263 ), #161, .F. ) ;
#38 = LINE ( 'NONE', #105, #230 ) ;
#39 = CLOSED_SHELL ( 'NONE', ( #252, #234, #37, #92, #222 ) ) ;
#40 = APPROVAL_STATUS ( 'not_yet_approved' ) ;
#41 = EDGE_LOOP ( 'NONE', ( #238, #86, #62, #87 ) ) ;
#42 = DIRECTION ( 'NONE',  ( -0.000000000000000000, -0.000000000000000000, -1.000000000000000000 ) ) ;
#43 = LINE ( 'NONE', #107, #223 ) ;
#44 = DIRECTION ( 'NONE',  ( 1.000000000000000000, 0.000000000000000000, 0.000000000000000000 ) ) ;
#45 = CALENDAR_DATE ( 2021, 5, 1 ) ;
#46 = DIRECTION ( 'NONE',  ( 1.000000000000000000, 0.000000000000000000, 0.000000000000000000 ) ) ;
#47 = DATE_AND_TIME ( #26, #199 ) ;
#48 = MANIFOLD_SOLID_BREP ( 'Í¹Ì¨-À', #39 ) ;
#49 = DATE_TIME_ROLE ( 'creation_date' ) ;
#50 = EDGE_CURVE ( 'NONE', #180, #226, #43, .T. ) ;
#51 = APPROVAL_ROLE ( '' ) ;
#52 =( GEOMETRIC_REPRESENTATION_CONTEXT ( 3 ) GLOBAL_UNCERTAINTY_ASSIGNED_CONTEXT ( ( #123 ) ) GLOBAL_UNIT_ASSIGNED_CONTEXT ( ( #197, #22, #89 ) ) REPRESENTATION_CONTEXT ( 'NONE', 'WORKASPACE' ) );
#53 = DIRECTION ( 'NONE',  ( -0.7071067811865474617, -0.7071067811865474617, 0.000000000000000000 ) ) ;
#54 = ORIENTED_EDGE ( 'NONE', *, *, #73, .T. ) ;
#55 = CARTESIAN_POINT ( 'NONE',  ( 12.69999999999999929, 12.69999999999999929, 12.69999999999999929 ) ) ;
#56 = DIRECTION ( 'NONE',  ( 0.000000000000000000, 0.000000000000000000, 1.000000000000000000 ) ) ;
#57 = VECTOR ( 'NONE', #235, 1000.000000000000000 ) ;
#58 = CARTESIAN_POINT ( 'NONE',  ( -12.70000000000000284, 12.70000000000000284, -12.69999999999999929 ) ) ;
#59 = DIRECTION ( 'NONE',  ( -0.000000000000000000, 1.000000000000000000, -0.000000000000000000 ) ) ;
#60 = EDGE_CURVE ( 'NONE', #11, #191, #38, .T. ) ;
#61 = CARTESIAN_POINT ( 'NONE',  ( -12.69999999999999751, -12.69999999999999929, 12.69999999999999929 ) ) ;
#62 = ORIENTED_EDGE ( 'NONE', *, *, #198, .F. ) ;
#63 = DIRECTION ( 'NONE',  ( -2.220446049250312588E-16, 1.000000000000000000, 0.000000000000000000 ) ) ;
#64 = ORIENTED_EDGE ( 'NONE', *, *, #211, .T. ) ;
#65 = APPROVAL_ROLE ( '' ) ;
#66 = ORIENTED_EDGE ( 'NONE', *, *, #306, .F. ) ;
#67 = CARTESIAN_POINT ( 'NONE',  ( 0.000000000000000000, 0.000000000000000000, -12.69999999999999929 ) ) ;
#68 = ADVANCED_FACE ( 'NONE', ( #81 ), #184, .F. ) ;
#69 = LOCAL_TIME ( 10, 15, 23.00000000000000000, #1 ) ;
#70 = APPROVAL_ROLE ( '' ) ;
#71 = ORIENTED_EDGE ( 'NONE', *, *, #96, .F. ) ;
#72 = PERSON ( 'UNSPECIFIED', 'UNSPECIFIED', 'UNSPECIFIED', ('UNSPECIFIED'), ('UNSPECIFIED'), ('UNSPECIFIED') ) ;
#73 = EDGE_CURVE ( 'NONE', #126, #279, #281, .T. ) ;
#74 = ORIENTED_EDGE ( 'NONE', *, *, #77, .T. ) ;
#75 = PLANE ( 'NONE',  #218 ) ;
#76 = VECTOR ( 'NONE', #278, 999.9999999999998863 ) ;
#77 = EDGE_CURVE ( 'NONE', #18, #11, #20, .T. ) ;
#78 = EDGE_LOOP ( 'NONE', ( #303, #301, #177, #156 ) ) ;
#79 = LINE ( 'NONE', #97, #243 ) ;
#80 = ORIENTED_EDGE ( 'NONE', *, *, #60, .F. ) ;
#81 = FACE_OUTER_BOUND ( 'NONE', #277, .T. ) ;
#82 = CARTESIAN_POINT ( 'NONE',  ( 12.69999999999999574, 12.69999999999999574, -12.69999999999999929 ) ) ;
#83 = ORIENTED_EDGE ( 'NONE', *, *, #170, .T. ) ;
#84 = CARTESIAN_POINT ( 'NONE',  ( 12.69999999999999929, -12.69999999999999929, 12.69999999999999929 ) ) ;
#85 = APPROVAL_PERSON_ORGANIZATION ( #242, #98, #65 ) ;
#86 = ORIENTED_EDGE ( 'NONE', *, *, #181, .F. ) ;
#87 = ORIENTED_EDGE ( 'NONE', *, *, #274, .T. ) ;
#88 = EDGE_LOOP ( 'NONE', ( #83, #32, #104 ) ) ;
#89 =( NAMED_UNIT ( * ) SI_UNIT ( $, .STERADIAN. ) SOLID_ANGLE_UNIT ( ) );
#90 = LINE ( 'NONE', #163, #5 ) ;
#91 = PLANE ( 'NONE',  #174 ) ;
#92 = ADVANCED_FACE ( 'NONE', ( #216 ), #144, .T. ) ;
#93 = PERSON_AND_ORGANIZATION_ROLE ( 'creator' ) ;
#94 = ORIENTED_EDGE ( 'NONE', *, *, #298, .T. ) ;
#95 = PRODUCT_DEFINITION_FORMATION_WITH_SPECIFIED_SOURCE ( 'ANY', '', #288, .NOT_KNOWN. ) ;
#96 = EDGE_CURVE ( 'NONE', #206, #126, #205, .T. ) ;
#97 = CARTESIAN_POINT ( 'NONE',  ( 12.69999999999999929, 12.69999999999999929, -12.69999999999999929 ) ) ;
#98 = APPROVAL ( #40, 'UNSPECIFIED' ) ;
#99 = DIRECTION ( 'NONE',  ( 0.000000000000000000, 1.000000000000000000, 0.000000000000000000 ) ) ;
#100 = CC_DESIGN_APPROVAL ( #245, ( #189 ) ) ;
#101 = DIRECTION ( 'NONE',  ( -0.000000000000000000, -0.000000000000000000, -1.000000000000000000 ) ) ;
#102 = DESIGN_CONTEXT ( 'detailed design', #8, 'design' ) ;
#103 = DIRECTION ( 'NONE',  ( 0.7071067811865475727, 0.7071067811865475727, 0.000000000000000000 ) ) ;
#104 = ORIENTED_EDGE ( 'NONE', *, *, #198, .T. ) ;
#105 = CARTESIAN_POINT ( 'NONE',  ( 12.69999999999999929, 12.69999999999999929, -12.69999999999999929 ) ) ;
#106 = DIRECTION ( 'NONE',  ( 0.7071067811865475727, -0.7071067811865475727, 0.000000000000000000 ) ) ;
#107 = CARTESIAN_POINT ( 'NONE',  ( -12.69999999999999751, -12.69999999999999929, 12.69999999999999929 ) ) ;
#108 = DIRECTION ( 'NONE',  ( 0.000000000000000000, 0.000000000000000000, 1.000000000000000000 ) ) ;
#109 = CARTESIAN_POINT ( 'NONE',  ( -12.69999999999999751, -12.69999999999999929, -12.69999999999999929 ) ) ;
#110 = VECTOR ( 'NONE', #209, 1000.000000000000114 ) ;
#111 = PERSON_AND_ORGANIZATION ( #72, #158 ) ;
#112 = CC_DESIGN_PERSON_AND_ORGANIZATION_ASSIGNMENT ( #169, #93, ( #4 ) ) ;
#113 = APPROVAL_DATE_TIME ( #202, #25 ) ;
#114 = DATE_TIME_ROLE ( 'classification_date' ) ;
#115 = AXIS2_PLACEMENT_3D ( 'NONE', #307, #276, #254 ) ;
#116 = CALENDAR_DATE ( 2021, 5, 1 ) ;
#117 = DATE_AND_TIME ( #270, #33 ) ;
#118 = LOCAL_TIME ( 10, 15, 23.00000000000000000, #225 ) ;
#119 = DIRECTION ( 'NONE',  ( -0.7071067811865475727, -0.7071067811865475727, 0.000000000000000000 ) ) ;
#120 = ADVANCED_FACE ( 'NONE', ( #188 ), #127, .T. ) ;
#121 = ORIENTED_EDGE ( 'NONE', *, *, #176, .F. ) ;
#122 = VECTOR ( 'NONE', #101, 1000.000000000000000 ) ;
#123 = UNCERTAINTY_MEASURE_WITH_UNIT (LENGTH_MEASURE( 1.000000000000000082E-05 ), #197, 'distance_accuracy_value', 'NONE');
#124 = PLANE ( 'NONE',  #142 ) ;
#125 = ADVANCED_FACE ( 'NONE', ( #154 ), #75, .F. ) ;
#126 = VERTEX_POINT ( 'NONE', #250 ) ;
#127 = PLANE ( 'NONE',  #219 ) ;
#128 = DIRECTION ( 'NONE',  ( 0.000000000000000000, 0.000000000000000000, 1.000000000000000000 ) ) ;
#129 = CARTESIAN_POINT ( 'NONE',  ( 12.69999999999999574, 12.69999999999999574, -12.69999999999999929 ) ) ;
#130 = PRODUCT_DEFINITION_SHAPE ( 'NONE', 'NONE',  #4 ) ;
#131 = DIRECTION ( 'NONE',  ( 1.000000000000000000, -2.220446049250312588E-16, 0.000000000000000000 ) ) ;
#132 = CARTESIAN_POINT ( 'NONE',  ( -12.69999999999999574, -12.69999999999999396, -12.69999999999999929 ) ) ;
#133 = ADVANCED_BREP_SHAPE_REPRESENTATION ( 'N-SF1-BPBSC-25.4-900-1300', ( #48, #149, #239 ), #52 ) ;
#134 = ORIENTED_EDGE ( 'NONE', *, *, #267, .F. ) ;
#135 = LINE ( 'NONE', #314, #305 ) ;
#136 = CC_DESIGN_APPROVAL ( #98, ( #4 ) ) ;
#137 = CC_DESIGN_PERSON_AND_ORGANIZATION_ASSIGNMENT ( #320, #172, ( #189 ) ) ;
#138 = ORIENTED_EDGE ( 'NONE', *, *, #255, .T. ) ;
#139 = APPROVAL_DATE_TIME ( #221, #98 ) ;
#140 = ORIENTED_EDGE ( 'NONE', *, *, #267, .T. ) ;
#141 = DIRECTION ( 'NONE',  ( 0.7071067811865474617, 0.7071067811865474617, 0.000000000000000000 ) ) ;
#142 = AXIS2_PLACEMENT_3D ( 'NONE', #29, #99, #309 ) ;
#143 = APPROVAL_STATUS ( 'not_yet_approved' ) ;
#144 = PLANE ( 'NONE',  #147 ) ;
#145 = PERSON_AND_ORGANIZATION ( #72, #158 ) ;
#146 = CLOSED_SHELL ( 'NONE', ( #229, #68, #125, #120, #273 ) ) ;
#147 = AXIS2_PLACEMENT_3D ( 'NONE', #196, #271, #46 ) ;
#148 = SECURITY_CLASSIFICATION_LEVEL ( 'unclassified' ) ;
#149 = MANIFOLD_SOLID_BREP ( '¾µÏ', #146 ) ;
#150 = CC_DESIGN_DATE_AND_TIME_ASSIGNMENT ( #117, #49, ( #4 ) ) ;
#151 = LINE ( 'NONE', #155, #261 ) ;
#152 = EDGE_LOOP ( 'NONE', ( #121, #299, #190, #54 ) ) ;
#153 = CARTESIAN_POINT ( 'NONE',  ( -12.69999999999999574, -12.69999999999999396, 12.69999999999999929 ) ) ;
#154 = FACE_OUTER_BOUND ( 'NONE', #310, .T. ) ;
#155 = CARTESIAN_POINT ( 'NONE',  ( 12.69999999999999929, 12.69999999999999929, 12.69999999999999929 ) ) ;
#156 = ORIENTED_EDGE ( 'NONE', *, *, #181, .T. ) ;
#157 = PLANE ( 'NONE',  #115 ) ;
#158 = ORGANIZATION ( 'UNSPECIFIED', 'UNSPECIFIED', '' ) ;
#159 = ORIENTED_EDGE ( 'NONE', *, *, #274, .F. ) ;
#160 = LINE ( 'NONE', #194, #227 ) ;
#161 = PLANE ( 'NONE',  #173 ) ;
#162 = CC_DESIGN_PERSON_AND_ORGANIZATION_ASSIGNMENT ( #111, #165, ( #288 ) ) ;
#163 = CARTESIAN_POINT ( 'NONE',  ( 12.69999999999999929, -12.69999999999999929, 12.69999999999999929 ) ) ;
#164 = ORIENTED_EDGE ( 'NONE', *, *, #255, .F. ) ;
#165 = PERSON_AND_ORGANIZATION_ROLE ( 'design_owner' ) ;
#166 = CARTESIAN_POINT ( 'NONE',  ( -12.69999999999999751, -12.69999999999999929, -12.69999999999999929 ) ) ;
#167 = DIRECTION ( 'NONE',  ( 0.000000000000000000, 0.000000000000000000, -1.000000000000000000 ) ) ;
#168 = MECHANICAL_CONTEXT ( 'NONE', #285, 'mechanical' ) ;
#169 = PERSON_AND_ORGANIZATION ( #72, #158 ) ;
#170 = EDGE_CURVE ( 'NONE', #241, #180, #286, .T. ) ;
#171 = AXIS2_PLACEMENT_3D ( 'NONE', #187, #131, #313 ) ;
#172 = PERSON_AND_ORGANIZATION_ROLE ( 'classification_officer' ) ;
#173 = AXIS2_PLACEMENT_3D ( 'NONE', #15, #258, #128 ) ;
#174 = AXIS2_PLACEMENT_3D ( 'NONE', #67, #319, #63 ) ;
#175 = PERSON_AND_ORGANIZATION ( #72, #158 ) ;
#176 = EDGE_CURVE ( 'NONE', #249, #279, #7, .T. ) ;
#177 = ORIENTED_EDGE ( 'NONE', *, *, #170, .F. ) ;
#178 = FACE_OUTER_BOUND ( 'NONE', #275, .T. ) ;
#179 = AXIS2_PLACEMENT_3D ( 'NONE', #35, #106, #141 ) ;
#180 = VERTEX_POINT ( 'NONE', #253 ) ;
#181 = EDGE_CURVE ( 'NONE', #241, #191, #182, .T. ) ;
#182 = LINE ( 'NONE', #12, #57 ) ;
#183 = CARTESIAN_POINT ( 'NONE',  ( 12.69999999999999929, 12.69999999999999929, 12.69999999999999929 ) ) ;
#184 = PLANE ( 'NONE',  #171 ) ;
#185 = FACE_OUTER_BOUND ( 'NONE', #78, .T. ) ;
#186 = EDGE_CURVE ( 'NONE', #191, #18, #79, .T. ) ;
#187 = CARTESIAN_POINT ( 'NONE',  ( -12.69999999999999574, -12.69999999999999396, 12.69999999999999929 ) ) ;
#188 = FACE_OUTER_BOUND ( 'NONE', #256, .T. ) ;
#189 = SECURITY_CLASSIFICATION ( '', '', #148 ) ;
#190 = ORIENTED_EDGE ( 'NONE', *, *, #96, .T. ) ;
#191 = VERTEX_POINT ( 'NONE', #204 ) ;
#192 = CARTESIAN_POINT ( 'NONE',  ( 0.000000000000000000, 0.000000000000000000, 0.000000000000000000 ) ) ;
#193 = ORIENTED_EDGE ( 'NONE', *, *, #306, .T. ) ;
#194 = CARTESIAN_POINT ( 'NONE',  ( 12.69999999999999574, 12.69999999999999574, 12.69999999999999929 ) ) ;
#195 = CC_DESIGN_SECURITY_CLASSIFICATION ( #189, ( #95 ) ) ;
#196 = CARTESIAN_POINT ( 'NONE',  ( 0.000000000000000000, 0.000000000000000000, 12.69999999999999929 ) ) ;
#197 =( LENGTH_UNIT ( ) NAMED_UNIT ( * ) SI_UNIT ( .MILLI., .METRE. ) );
#198 = EDGE_CURVE ( 'NONE', #226, #241, #151, .T. ) ;
#199 = LOCAL_TIME ( 10, 15, 23.00000000000000000, #272 ) ;
#200 = CC_DESIGN_PERSON_AND_ORGANIZATION_ASSIGNMENT ( #24, #293, ( #95 ) ) ;
#201 = APPROVAL_STATUS ( 'not_yet_approved' ) ;
#202 = DATE_AND_TIME ( #116, #69 ) ;
#203 = ORIENTED_EDGE ( 'NONE', *, *, #73, .F. ) ;
#204 = CARTESIAN_POINT ( 'NONE',  ( 12.69999999999999929, 12.69999999999999929, -12.69999999999999929 ) ) ;
#205 = LINE ( 'NONE', #28, #76 ) ;
#206 = VERTEX_POINT ( 'NONE', #231 ) ;
#207 = DIRECTION ( 'NONE',  ( -2.220446049250312588E-16, 1.000000000000000000, 0.000000000000000000 ) ) ;
#208 = ORIENTED_EDGE ( 'NONE', *, *, #265, .T. ) ;
#209 = DIRECTION ( 'NONE',  ( -0.7071067811865474617, -0.7071067811865474617, 0.000000000000000000 ) ) ;
#210 = LINE ( 'NONE', #153, #280 ) ;
#211 = EDGE_CURVE ( 'NONE', #126, #316, #210, .T. ) ;
#212 = ORIENTED_EDGE ( 'NONE', *, *, #77, .F. ) ;
#213 = DIRECTION ( 'NONE',  ( 1.000000000000000000, -2.220446049250312588E-16, 0.000000000000000000 ) ) ;
#214 = DIRECTION ( 'NONE',  ( 0.000000000000000000, 0.000000000000000000, -1.000000000000000000 ) ) ;
#215 = CARTESIAN_POINT ( 'NONE',  ( -12.70000000000000284, 12.70000000000000284, 12.69999999999999929 ) ) ;
#216 = FACE_OUTER_BOUND ( 'NONE', #88, .T. ) ;
#217 = DIRECTION ( 'NONE',  ( 1.000000000000000000, -2.220446049250312588E-16, 0.000000000000000000 ) ) ;
#218 = AXIS2_PLACEMENT_3D ( 'NONE', #14, #311, #56 ) ;
#219 = AXIS2_PLACEMENT_3D ( 'NONE', #228, #257, #207 ) ;
#220 = FACE_OUTER_BOUND ( 'NONE', #27, .T. ) ;
#221 = DATE_AND_TIME ( #45, #269 ) ;
#222 = ADVANCED_FACE ( 'NONE', ( #178 ), #157, .F. ) ;
#223 = VECTOR ( 'NONE', #289, 1000.000000000000000 ) ;
#224 = PERSON_AND_ORGANIZATION_ROLE ( 'creator' ) ;
#225 = COORDINATED_UNIVERSAL_TIME_OFFSET ( 8, 0, .AHEAD. ) ;
#226 = VERTEX_POINT ( 'NONE', #84 ) ;
#227 = VECTOR ( 'NONE', #167, 1000.000000000000000 ) ;
#228 = CARTESIAN_POINT ( 'NONE',  ( 0.000000000000000000, 0.000000000000000000, 12.69999999999999929 ) ) ;
#229 = ADVANCED_FACE ( 'NONE', ( #304 ), #30, .F. ) ;
#230 = VECTOR ( 'NONE', #36, 1000.000000000000000 ) ;
#231 = CARTESIAN_POINT ( 'NONE',  ( 12.69999999999999574, 12.69999999999999574, 12.69999999999999929 ) ) ;
#232 = CARTESIAN_POINT ( 'NONE',  ( 12.69999999999999574, 12.69999999999999574, 12.69999999999999929 ) ) ;
#233 = DIRECTION ( 'NONE',  ( 1.000000000000000000, 0.000000000000000000, 0.000000000000000000 ) ) ;
#234 = ADVANCED_FACE ( 'NONE', ( #251 ), #124, .F. ) ;
#235 = DIRECTION ( 'NONE',  ( -0.000000000000000000, -0.000000000000000000, -1.000000000000000000 ) ) ;
#236 = ORIENTED_EDGE ( 'NONE', *, *, #50, .F. ) ;
#237 = CARTESIAN_POINT ( 'NONE',  ( 12.69999999999999574, 12.69999999999999574, 12.69999999999999929 ) ) ;
#238 = ORIENTED_EDGE ( 'NONE', *, *, #60, .T. ) ;
#239 = AXIS2_PLACEMENT_3D ( 'NONE', #192, #108, #44 ) ;
#240 = LINE ( 'NONE', #237, #318 ) ;
#241 = VERTEX_POINT ( 'NONE', #183 ) ;
#242 = PERSON_AND_ORGANIZATION ( #72, #158 ) ;
#243 = VECTOR ( 'NONE', #53, 1000.000000000000114 ) ;
#244 = SHAPE_DEFINITION_REPRESENTATION ( #130, #133 ) ;
#245 = APPROVAL ( #201, 'UNSPECIFIED' ) ;
#246 = CALENDAR_DATE ( 2021, 5, 1 ) ;
#247 = VECTOR ( 'NONE', #259, 1000.000000000000000 ) ;
#248 = DATE_AND_TIME ( #246, #118 ) ;
#249 = VERTEX_POINT ( 'NONE', #82 ) ;
#250 = CARTESIAN_POINT ( 'NONE',  ( -12.69999999999999574, -12.69999999999999396, 12.69999999999999929 ) ) ;
#251 = FACE_OUTER_BOUND ( 'NONE', #3, .T. ) ;
#252 = ADVANCED_FACE ( 'NONE', ( #185 ), #282, .F. ) ;
#253 = CARTESIAN_POINT ( 'NONE',  ( -12.69999999999999751, -12.69999999999999929, 12.69999999999999929 ) ) ;
#254 = DIRECTION ( 'NONE',  ( 1.000000000000000000, 0.000000000000000000, 0.000000000000000000 ) ) ;
#255 = EDGE_CURVE ( 'NONE', #316, #206, #240, .T. ) ;
#256 = EDGE_LOOP ( 'NONE', ( #71, #164, #13 ) ) ;
#257 = DIRECTION ( 'NONE',  ( 0.000000000000000000, 0.000000000000000000, 1.000000000000000000 ) ) ;
#258 = DIRECTION ( 'NONE',  ( -1.000000000000000000, 0.000000000000000000, 0.000000000000000000 ) ) ;
#259 = DIRECTION ( 'NONE',  ( -2.220446049250312588E-16, 1.000000000000000000, 0.000000000000000000 ) ) ;
#260 = CARTESIAN_POINT ( 'NONE',  ( 12.69999999999999929, -12.69999999999999929, -12.69999999999999929 ) ) ;
#261 = VECTOR ( 'NONE', #59, 1000.000000000000000 ) ;
#262 = CARTESIAN_POINT ( 'NONE',  ( -12.69999999999999574, -12.69999999999999396, 12.69999999999999929 ) ) ;
#263 = FACE_OUTER_BOUND ( 'NONE', #41, .T. ) ;
#264 = APPLICATION_PROTOCOL_DEFINITION ( 'international standard', 'config_control_design', 1994, #285 ) ;
#265 = EDGE_CURVE ( 'NONE', #316, #34, #317, .T. ) ;
#266 = COORDINATED_UNIVERSAL_TIME_OFFSET ( 8, 0, .AHEAD. ) ;
#267 = EDGE_CURVE ( 'NONE', #279, #34, #23, .T. ) ;
#268 = APPROVAL_DATE_TIME ( #47, #245 ) ;
#269 = LOCAL_TIME ( 10, 15, 23.00000000000000000, #266 ) ;
#270 = CALENDAR_DATE ( 2021, 5, 1 ) ;
#271 = DIRECTION ( 'NONE',  ( -0.000000000000000000, 0.000000000000000000, 1.000000000000000000 ) ) ;
#272 = COORDINATED_UNIVERSAL_TIME_OFFSET ( 8, 0, .AHEAD. ) ;
#273 = ADVANCED_FACE ( 'NONE', ( #220 ), #91, .F. ) ;
#274 = EDGE_CURVE ( 'NONE', #226, #11, #90, .T. ) ;
#275 = EDGE_LOOP ( 'NONE', ( #287, #80, #212 ) ) ;
#276 = DIRECTION ( 'NONE',  ( -0.000000000000000000, 0.000000000000000000, 1.000000000000000000 ) ) ;
#277 = EDGE_LOOP ( 'NONE', ( #134, #203, #64, #208 ) ) ;
#278 = DIRECTION ( 'NONE',  ( -0.7071067811865475727, -0.7071067811865475727, 0.000000000000000000 ) ) ;
#279 = VERTEX_POINT ( 'NONE', #21 ) ;
#280 = VECTOR ( 'NONE', #302, 1000.000000000000000 ) ;
#281 = LINE ( 'NONE', #262, #31 ) ;
#282 = PLANE ( 'NONE',  #179 ) ;
#283 = VECTOR ( 'NONE', #292, 1000.000000000000000 ) ;
#284 = ORIENTED_EDGE ( 'NONE', *, *, #176, .T. ) ;
#285 = APPLICATION_CONTEXT ( 'configuration controlled 3d designs of mechanical parts and assemblies' ) ;
#286 = LINE ( 'NONE', #55, #110 ) ;
#287 = ORIENTED_EDGE ( 'NONE', *, *, #186, .F. ) ;
#288 = PRODUCT ( 'N-SF1-BPBSC-25.4-900-1300', 'N-SF1-BPBSC-25.4-900-1300', '', ( #168 ) ) ;
#289 = DIRECTION ( 'NONE',  ( 1.000000000000000000, 0.000000000000000000, 0.000000000000000000 ) ) ;
#290 = APPLICATION_PROTOCOL_DEFINITION ( 'international standard', 'config_control_design', 1994, #8 ) ;
#291 = ORIENTED_EDGE ( 'NONE', *, *, #265, .F. ) ;
#292 = DIRECTION ( 'NONE',  ( 0.000000000000000000, 0.000000000000000000, -1.000000000000000000 ) ) ;
#293 = PERSON_AND_ORGANIZATION_ROLE ( 'design_supplier' ) ;
#294 = VECTOR ( 'NONE', #119, 999.9999999999998863 ) ;
#295 = VECTOR ( 'NONE', #233, 1000.000000000000000 ) ;
#296 = ORIENTED_EDGE ( 'NONE', *, *, #16, .T. ) ;
#297 = APPROVAL_PERSON_ORGANIZATION ( #145, #25, #51 ) ;
#298 = EDGE_CURVE ( 'NONE', #206, #249, #160, .T. ) ;
#299 = ORIENTED_EDGE ( 'NONE', *, *, #298, .F. ) ;
#300 = CC_DESIGN_DATE_AND_TIME_ASSIGNMENT ( #248, #114, ( #189 ) ) ;
#301 = ORIENTED_EDGE ( 'NONE', *, *, #16, .F. ) ;
#302 = DIRECTION ( 'NONE',  ( -2.220446049250312588E-16, 1.000000000000000000, 0.000000000000000000 ) ) ;
#303 = ORIENTED_EDGE ( 'NONE', *, *, #186, .T. ) ;
#304 = FACE_OUTER_BOUND ( 'NONE', #152, .T. ) ;
#305 = VECTOR ( 'NONE', #213, 1000.000000000000000 ) ;
#306 = EDGE_CURVE ( 'NONE', #34, #249, #135, .T. ) ;
#307 = CARTESIAN_POINT ( 'NONE',  ( 0.000000000000000000, 0.000000000000000000, -12.69999999999999929 ) ) ;
#308 = LINE ( 'NONE', #61, #122 ) ;
#309 = DIRECTION ( 'NONE',  ( 0.000000000000000000, -0.000000000000000000, 1.000000000000000000 ) ) ;
#310 = EDGE_LOOP ( 'NONE', ( #66, #291, #138, #94 ) ) ;
#311 = DIRECTION ( 'NONE',  ( 2.220446049250312588E-16, -1.000000000000000000, 0.000000000000000000 ) ) ;
#312 = APPROVAL_PERSON_ORGANIZATION ( #175, #245, #70 ) ;
#313 = DIRECTION ( 'NONE',  ( 0.000000000000000000, 0.000000000000000000, 1.000000000000000000 ) ) ;
#314 = CARTESIAN_POINT ( 'NONE',  ( 12.69999999999999574, 12.69999999999999574, -12.69999999999999929 ) ) ;
#315 = CC_DESIGN_PERSON_AND_ORGANIZATION_ASSIGNMENT ( #321, #224, ( #95 ) ) ;
#316 = VERTEX_POINT ( 'NONE', #19 ) ;
#317 = LINE ( 'NONE', #215, #283 ) ;
#318 = VECTOR ( 'NONE', #217, 1000.000000000000000 ) ;
#319 = DIRECTION ( 'NONE',  ( 0.000000000000000000, 0.000000000000000000, 1.000000000000000000 ) ) ;
#320 = PERSON_AND_ORGANIZATION ( #72, #158 ) ;
#321 = PERSON_AND_ORGANIZATION ( #72, #158 ) ;
ENDSEC;
END-ISO-10303-21;
